ISO-10303-21;
HEADER;
/* Generated by software containing ST-Developer
 * from STEP Tools, Inc. (www.steptools.com) 
 */

FILE_DESCRIPTION(
/* description */ (''),
/* implementation_level */ '2;1');

FILE_NAME(
/* name */ '',
/* time_stamp */ '2025-07-23T14:23:20+07:00',
/* author */ ('zeta-86'),
/* organization */ (''),
/* preprocessor_version */ 'ST-DEVELOPER v19.2',
/* originating_system */ 'Autodesk Inventor 2024',
/* authorisation */ '');

FILE_SCHEMA (('AUTOMOTIVE_DESIGN { 1 0 10303 214 3 1 1 }'));
ENDSEC;

DATA;
#10=MECHANICAL_DESIGN_GEOMETRIC_PRESENTATION_REPRESENTATION('',(#13),#465);
#11=SHAPE_REPRESENTATION_RELATIONSHIP('SRR','None',#472,#12);
#12=ADVANCED_BREP_SHAPE_REPRESENTATION('',(#14),#464);
#13=STYLED_ITEM('',(#481),#14);
#14=MANIFOLD_SOLID_BREP('\X2\04220432043504400434043E0435\X0\ \X2\04420435043B043E\X0\2',
#221);
#15=TOROIDAL_SURFACE('',#273,10.75,0.75);
#16=(
BOUNDED_CURVE()
B_SPLINE_CURVE(2,(#457,#458,#459),.UNSPECIFIED.,.F.,.F.)
B_SPLINE_CURVE_WITH_KNOTS((3,3),(1.32272406674848,1.40646287935509),
 .UNSPECIFIED.)
CURVE()
GEOMETRIC_REPRESENTATION_ITEM()
RATIONAL_B_SPLINE_CURVE((1.,0.997626201984638,0.997003569617632))
REPRESENTATION_ITEM('')
);
#17=(
BOUNDED_SURFACE()
B_SPLINE_SURFACE(2,2,((#430,#431,#432,#433,#434,#435,#436,#437,#438),(#439,
#440,#441,#442,#443,#444,#445,#446,#447),(#448,#449,#450,#451,#452,#453,
#454,#455,#456)),.UNSPECIFIED.,.F.,.T.,.F.)
B_SPLINE_SURFACE_WITH_KNOTS((3,3),(3,2,2,2,3),(1.32272406674848,1.54974888003329),
(-3.14159265358979,-1.5707963267949,0.,1.5707963267949,3.14159265358979),
 .UNSPECIFIED.)
GEOMETRIC_REPRESENTATION_ITEM()
RATIONAL_B_SPLINE_SURFACE(((1.,0.707106781186548,1.,0.707106781186548,1.,
0.707106781186548,1.,0.707106781186548,1.),(0.993564381504369,0.702556111707157,
0.993564381504369,0.702556111707157,0.993564381504369,0.702556111707157,
0.993564381504369,0.702556111707157,0.993564381504369),(1.,0.707106781186548,
1.,0.707106781186548,1.,0.707106781186548,1.,0.707106781186548,1.)))
REPRESENTATION_ITEM('')
SURFACE()
);
#18=CONICAL_SURFACE('',#259,9.25,0.785398163397445);
#19=CONICAL_SURFACE('',#263,10.575,0.785398163397448);
#20=CONICAL_SURFACE('',#269,10.575,0.785398163397448);
#21=B_SPLINE_CURVE_WITH_KNOTS('',3,(#367,#368,#369,#370,#371,#372),
 .UNSPECIFIED.,.F.,.F.,(4,2,4),(-15.2636856735146,-14.5046945894093,-13.7457035112427),
 .UNSPECIFIED.);
#22=B_SPLINE_CURVE_WITH_KNOTS('',3,(#377,#378,#379,#380,#381,#382),
 .UNSPECIFIED.,.F.,.F.,(4,2,4),(13.7457035112648,14.5046945894089,15.2636856734917),
 .UNSPECIFIED.);
#23=B_SPLINE_CURVE_WITH_KNOTS('',3,(#386,#387,#388,#389,#390,#391),
 .UNSPECIFIED.,.F.,.F.,(4,2,4),(3.26251064911213,3.29113431016108,3.36705736660667),
 .UNSPECIFIED.);
#24=B_SPLINE_CURVE_WITH_KNOTS('',3,(#392,#393,#394,#395,#396,#397,#398),
 .UNSPECIFIED.,.F.,.F.,(4,3,4),(6.72337332533949,6.82382200178392,6.92423063584007),
 .UNSPECIFIED.);
#25=B_SPLINE_CURVE_WITH_KNOTS('',3,(#399,#400,#401,#402),.UNSPECIFIED.,
 .F.,.F.,(4,4),(3.36705736660667,3.47214306312167),.UNSPECIFIED.);
#26=LINE('',#360,#32);
#27=LINE('',#405,#33);
#28=LINE('',#414,#34);
#29=LINE('',#421,#35);
#30=LINE('',#423,#36);
#31=LINE('',#429,#37);
#32=VECTOR('',#293,10.15);
#33=VECTOR('',#310,9.25);
#34=VECTOR('',#321,10.575);
#35=VECTOR('',#330,11.);
#36=VECTOR('',#333,10.575);
#37=VECTOR('',#340,12.);
#38=CYLINDRICAL_SURFACE('',#249,10.15);
#39=CYLINDRICAL_SURFACE('',#258,38.4020218760031);
#40=CYLINDRICAL_SURFACE('',#266,11.);
#41=CYLINDRICAL_SURFACE('',#270,12.);
#42=FACE_BOUND('',#60,.T.);
#43=FACE_BOUND('',#67,.T.);
#44=FACE_OUTER_BOUND('',#58,.T.);
#45=FACE_OUTER_BOUND('',#59,.T.);
#46=FACE_OUTER_BOUND('',#61,.T.);
#47=FACE_OUTER_BOUND('',#62,.T.);
#48=FACE_OUTER_BOUND('',#63,.T.);
#49=FACE_OUTER_BOUND('',#64,.T.);
#50=FACE_OUTER_BOUND('',#65,.T.);
#51=FACE_OUTER_BOUND('',#66,.T.);
#52=FACE_OUTER_BOUND('',#68,.T.);
#53=FACE_OUTER_BOUND('',#69,.T.);
#54=FACE_OUTER_BOUND('',#70,.T.);
#55=FACE_OUTER_BOUND('',#71,.T.);
#56=FACE_OUTER_BOUND('',#72,.T.);
#57=FACE_OUTER_BOUND('',#73,.T.);
#58=EDGE_LOOP('',(#142));
#59=EDGE_LOOP('',(#143));
#60=EDGE_LOOP('',(#144));
#61=EDGE_LOOP('',(#145,#146,#147,#148,#149,#150));
#62=EDGE_LOOP('',(#151,#152));
#63=EDGE_LOOP('',(#153,#154));
#64=EDGE_LOOP('',(#155,#156,#157,#158,#159));
#65=EDGE_LOOP('',(#160,#161,#162,#163));
#66=EDGE_LOOP('',(#164));
#67=EDGE_LOOP('',(#165));
#68=EDGE_LOOP('',(#166,#167,#168,#169,#170));
#69=EDGE_LOOP('',(#171,#172,#173,#174,#175,#176));
#70=EDGE_LOOP('',(#177,#178,#179,#180,#181,#182));
#71=EDGE_LOOP('',(#183,#184,#185,#186,#187));
#72=EDGE_LOOP('',(#188,#189,#190,#191,#192,#193,#194,#195,#196));
#73=EDGE_LOOP('',(#197,#198,#199,#200,#201));
#74=CIRCLE('',#245,9.);
#75=CIRCLE('',#247,12.);
#76=CIRCLE('',#248,11.4571067811865);
#77=CIRCLE('',#250,10.15);
#78=CIRCLE('',#251,10.15);
#79=CIRCLE('',#252,10.15);
#80=CIRCLE('',#253,10.15);
#81=CIRCLE('',#255,38.4020218760031);
#82=CIRCLE('',#257,38.4020218760031);
#83=CIRCLE('',#260,9.5);
#84=CIRCLE('',#262,10.15);
#85=CIRCLE('',#264,11.);
#86=CIRCLE('',#265,11.);
#87=CIRCLE('',#267,11.);
#88=CIRCLE('',#268,11.);
#89=CIRCLE('',#271,12.);
#90=CIRCLE('',#272,12.);
#91=CIRCLE('',#274,0.75);
#92=VERTEX_POINT('',#347);
#93=VERTEX_POINT('',#350);
#94=VERTEX_POINT('',#352);
#95=VERTEX_POINT('',#355);
#96=VERTEX_POINT('',#356);
#97=VERTEX_POINT('',#359);
#98=VERTEX_POINT('',#361);
#99=VERTEX_POINT('',#365);
#100=VERTEX_POINT('',#366);
#101=VERTEX_POINT('',#375);
#102=VERTEX_POINT('',#376);
#103=VERTEX_POINT('',#385);
#104=VERTEX_POINT('',#404);
#105=VERTEX_POINT('',#408);
#106=VERTEX_POINT('',#411);
#107=VERTEX_POINT('',#412);
#108=VERTEX_POINT('',#417);
#109=VERTEX_POINT('',#418);
#110=VERTEX_POINT('',#425);
#111=VERTEX_POINT('',#426);
#112=EDGE_CURVE('',#92,#92,#74,.T.);
#113=EDGE_CURVE('',#93,#93,#75,.T.);
#114=EDGE_CURVE('',#94,#94,#76,.T.);
#115=EDGE_CURVE('',#95,#96,#77,.T.);
#116=EDGE_CURVE('',#96,#95,#78,.T.);
#117=EDGE_CURVE('',#96,#97,#26,.T.);
#118=EDGE_CURVE('',#97,#98,#79,.T.);
#119=EDGE_CURVE('',#98,#97,#80,.T.);
#120=EDGE_CURVE('',#99,#100,#21,.T.);
#121=EDGE_CURVE('',#100,#99,#81,.T.);
#122=EDGE_CURVE('',#101,#102,#22,.T.);
#123=EDGE_CURVE('',#102,#101,#82,.T.);
#124=EDGE_CURVE('',#102,#103,#23,.T.);
#125=EDGE_CURVE('',#100,#101,#24,.T.);
#126=EDGE_CURVE('',#103,#99,#25,.T.);
#127=EDGE_CURVE('',#92,#104,#27,.T.);
#128=EDGE_CURVE('',#104,#104,#83,.T.);
#129=EDGE_CURVE('',#105,#105,#84,.T.);
#130=EDGE_CURVE('',#106,#107,#85,.T.);
#131=EDGE_CURVE('',#107,#105,#28,.T.);
#132=EDGE_CURVE('',#107,#106,#86,.T.);
#133=EDGE_CURVE('',#108,#109,#87,.T.);
#134=EDGE_CURVE('',#109,#108,#88,.T.);
#135=EDGE_CURVE('',#109,#106,#29,.T.);
#136=EDGE_CURVE('',#108,#98,#30,.T.);
#137=EDGE_CURVE('',#110,#111,#89,.T.);
#138=EDGE_CURVE('',#111,#110,#90,.T.);
#139=EDGE_CURVE('',#111,#93,#31,.T.);
#140=EDGE_CURVE('',#110,#103,#16,.T.);
#141=EDGE_CURVE('',#95,#94,#91,.T.);
#142=ORIENTED_EDGE('',*,*,#112,.F.);
#143=ORIENTED_EDGE('',*,*,#113,.F.);
#144=ORIENTED_EDGE('',*,*,#114,.T.);
#145=ORIENTED_EDGE('',*,*,#115,.F.);
#146=ORIENTED_EDGE('',*,*,#116,.F.);
#147=ORIENTED_EDGE('',*,*,#117,.T.);
#148=ORIENTED_EDGE('',*,*,#118,.T.);
#149=ORIENTED_EDGE('',*,*,#119,.T.);
#150=ORIENTED_EDGE('',*,*,#117,.F.);
#151=ORIENTED_EDGE('',*,*,#120,.F.);
#152=ORIENTED_EDGE('',*,*,#121,.F.);
#153=ORIENTED_EDGE('',*,*,#122,.F.);
#154=ORIENTED_EDGE('',*,*,#123,.F.);
#155=ORIENTED_EDGE('',*,*,#124,.F.);
#156=ORIENTED_EDGE('',*,*,#123,.T.);
#157=ORIENTED_EDGE('',*,*,#125,.F.);
#158=ORIENTED_EDGE('',*,*,#121,.T.);
#159=ORIENTED_EDGE('',*,*,#126,.F.);
#160=ORIENTED_EDGE('',*,*,#112,.T.);
#161=ORIENTED_EDGE('',*,*,#127,.T.);
#162=ORIENTED_EDGE('',*,*,#128,.T.);
#163=ORIENTED_EDGE('',*,*,#127,.F.);
#164=ORIENTED_EDGE('',*,*,#129,.F.);
#165=ORIENTED_EDGE('',*,*,#128,.F.);
#166=ORIENTED_EDGE('',*,*,#130,.T.);
#167=ORIENTED_EDGE('',*,*,#131,.T.);
#168=ORIENTED_EDGE('',*,*,#129,.T.);
#169=ORIENTED_EDGE('',*,*,#131,.F.);
#170=ORIENTED_EDGE('',*,*,#132,.T.);
#171=ORIENTED_EDGE('',*,*,#133,.F.);
#172=ORIENTED_EDGE('',*,*,#134,.F.);
#173=ORIENTED_EDGE('',*,*,#135,.T.);
#174=ORIENTED_EDGE('',*,*,#132,.F.);
#175=ORIENTED_EDGE('',*,*,#130,.F.);
#176=ORIENTED_EDGE('',*,*,#135,.F.);
#177=ORIENTED_EDGE('',*,*,#133,.T.);
#178=ORIENTED_EDGE('',*,*,#134,.T.);
#179=ORIENTED_EDGE('',*,*,#136,.T.);
#180=ORIENTED_EDGE('',*,*,#118,.F.);
#181=ORIENTED_EDGE('',*,*,#119,.F.);
#182=ORIENTED_EDGE('',*,*,#136,.F.);
#183=ORIENTED_EDGE('',*,*,#137,.F.);
#184=ORIENTED_EDGE('',*,*,#138,.F.);
#185=ORIENTED_EDGE('',*,*,#139,.T.);
#186=ORIENTED_EDGE('',*,*,#113,.T.);
#187=ORIENTED_EDGE('',*,*,#139,.F.);
#188=ORIENTED_EDGE('',*,*,#137,.T.);
#189=ORIENTED_EDGE('',*,*,#138,.T.);
#190=ORIENTED_EDGE('',*,*,#140,.T.);
#191=ORIENTED_EDGE('',*,*,#126,.T.);
#192=ORIENTED_EDGE('',*,*,#120,.T.);
#193=ORIENTED_EDGE('',*,*,#125,.T.);
#194=ORIENTED_EDGE('',*,*,#122,.T.);
#195=ORIENTED_EDGE('',*,*,#124,.T.);
#196=ORIENTED_EDGE('',*,*,#140,.F.);
#197=ORIENTED_EDGE('',*,*,#115,.T.);
#198=ORIENTED_EDGE('',*,*,#116,.T.);
#199=ORIENTED_EDGE('',*,*,#141,.T.);
#200=ORIENTED_EDGE('',*,*,#114,.F.);
#201=ORIENTED_EDGE('',*,*,#141,.F.);
#202=PLANE('',#244);
#203=PLANE('',#246);
#204=PLANE('',#254);
#205=PLANE('',#256);
#206=PLANE('',#261);
#207=ADVANCED_FACE('',(#44),#202,.F.);
#208=ADVANCED_FACE('',(#45,#42),#203,.F.);
#209=ADVANCED_FACE('',(#46),#38,.T.);
#210=ADVANCED_FACE('',(#47),#204,.F.);
#211=ADVANCED_FACE('',(#48),#205,.T.);
#212=ADVANCED_FACE('',(#49),#39,.F.);
#213=ADVANCED_FACE('',(#50),#18,.F.);
#214=ADVANCED_FACE('',(#51,#43),#206,.T.);
#215=ADVANCED_FACE('',(#52),#19,.T.);
#216=ADVANCED_FACE('',(#53),#40,.T.);
#217=ADVANCED_FACE('',(#54),#20,.T.);
#218=ADVANCED_FACE('',(#55),#41,.T.);
#219=ADVANCED_FACE('',(#56),#17,.F.);
#220=ADVANCED_FACE('',(#57),#15,.T.);
#221=CLOSED_SHELL('',(#207,#208,#209,#210,#211,#212,#213,#214,#215,#216,
#217,#218,#219,#220));
#222=DERIVED_UNIT_ELEMENT(#225,1.);
#223=DERIVED_UNIT_ELEMENT(#467,-3.);
#224=DIMENSIONAL_EXPONENTS(0.,1.,0.,0.,0.,0.,0.);
#225=(
CONVERSION_BASED_UNIT('gram',#227)
MASS_UNIT()
NAMED_UNIT(#224)
);
#226=(
MASS_UNIT()
NAMED_UNIT(*)
SI_UNIT(.KILO.,.GRAM.)
);
#227=MASS_MEASURE_WITH_UNIT(MASS_MEASURE(0.001),#226);
#228=DERIVED_UNIT((#222,#223));
#229=MEASURE_REPRESENTATION_ITEM('density measure',
POSITIVE_RATIO_MEASURE(1.),#228);
#230=PROPERTY_DEFINITION_REPRESENTATION(#235,#232);
#231=PROPERTY_DEFINITION_REPRESENTATION(#236,#233);
#232=REPRESENTATION('material name',(#234),#464);
#233=REPRESENTATION('density',(#229),#464);
#234=DESCRIPTIVE_REPRESENTATION_ITEM('\X2\04220438043F043E0432044B0435\X0\',
'\X2\04220438043F043E0432044B0435\X0\');
#235=PROPERTY_DEFINITION('material property','material name',#474);
#236=PROPERTY_DEFINITION('material property','density of part',#474);
#237=DATE_TIME_ROLE('creation_date');
#238=APPLIED_DATE_AND_TIME_ASSIGNMENT(#239,#237,(#474));
#239=DATE_AND_TIME(#240,#241);
#240=CALENDAR_DATE(2025,23,7);
#241=LOCAL_TIME(14,13,8.,#242);
#242=COORDINATED_UNIVERSAL_TIME_OFFSET(0,0,.BEHIND.);
#243=AXIS2_PLACEMENT_3D('',#345,#275,#276);
#244=AXIS2_PLACEMENT_3D('',#346,#277,#278);
#245=AXIS2_PLACEMENT_3D('',#348,#279,#280);
#246=AXIS2_PLACEMENT_3D('',#349,#281,#282);
#247=AXIS2_PLACEMENT_3D('',#351,#283,#284);
#248=AXIS2_PLACEMENT_3D('',#353,#285,#286);
#249=AXIS2_PLACEMENT_3D('',#354,#287,#288);
#250=AXIS2_PLACEMENT_3D('',#357,#289,#290);
#251=AXIS2_PLACEMENT_3D('',#358,#291,#292);
#252=AXIS2_PLACEMENT_3D('',#362,#294,#295);
#253=AXIS2_PLACEMENT_3D('',#363,#296,#297);
#254=AXIS2_PLACEMENT_3D('',#364,#298,#299);
#255=AXIS2_PLACEMENT_3D('',#373,#300,#301);
#256=AXIS2_PLACEMENT_3D('',#374,#302,#303);
#257=AXIS2_PLACEMENT_3D('',#383,#304,#305);
#258=AXIS2_PLACEMENT_3D('',#384,#306,#307);
#259=AXIS2_PLACEMENT_3D('',#403,#308,#309);
#260=AXIS2_PLACEMENT_3D('',#406,#311,#312);
#261=AXIS2_PLACEMENT_3D('',#407,#313,#314);
#262=AXIS2_PLACEMENT_3D('',#409,#315,#316);
#263=AXIS2_PLACEMENT_3D('',#410,#317,#318);
#264=AXIS2_PLACEMENT_3D('',#413,#319,#320);
#265=AXIS2_PLACEMENT_3D('',#415,#322,#323);
#266=AXIS2_PLACEMENT_3D('',#416,#324,#325);
#267=AXIS2_PLACEMENT_3D('',#419,#326,#327);
#268=AXIS2_PLACEMENT_3D('',#420,#328,#329);
#269=AXIS2_PLACEMENT_3D('',#422,#331,#332);
#270=AXIS2_PLACEMENT_3D('',#424,#334,#335);
#271=AXIS2_PLACEMENT_3D('',#427,#336,#337);
#272=AXIS2_PLACEMENT_3D('',#428,#338,#339);
#273=AXIS2_PLACEMENT_3D('',#460,#341,#342);
#274=AXIS2_PLACEMENT_3D('',#461,#343,#344);
#275=DIRECTION('axis',(0.,0.,1.));
#276=DIRECTION('refdir',(1.,0.,0.));
#277=DIRECTION('center_axis',(0.,1.,0.));
#278=DIRECTION('ref_axis',(0.,0.,1.));
#279=DIRECTION('center_axis',(0.,1.,0.));
#280=DIRECTION('ref_axis',(1.,0.,0.));
#281=DIRECTION('center_axis',(0.,1.,0.));
#282=DIRECTION('ref_axis',(0.,0.,1.));
#283=DIRECTION('center_axis',(0.,1.,0.));
#284=DIRECTION('ref_axis',(1.,0.,0.));
#285=DIRECTION('center_axis',(-3.79732461642443E-16,1.,3.06161699786838E-17));
#286=DIRECTION('ref_axis',(0.,3.06161699786838E-17,-1.));
#287=DIRECTION('center_axis',(0.,1.,0.));
#288=DIRECTION('ref_axis',(-1.,0.,0.));
#289=DIRECTION('center_axis',(0.,1.,0.));
#290=DIRECTION('ref_axis',(-1.,0.,0.));
#291=DIRECTION('center_axis',(0.,1.,0.));
#292=DIRECTION('ref_axis',(-1.,0.,0.));
#293=DIRECTION('',(0.,-1.,0.));
#294=DIRECTION('center_axis',(0.,1.,0.));
#295=DIRECTION('ref_axis',(1.,0.,0.));
#296=DIRECTION('center_axis',(0.,1.,0.));
#297=DIRECTION('ref_axis',(1.,0.,0.));
#298=DIRECTION('center_axis',(1.,0.,0.));
#299=DIRECTION('ref_axis',(0.,0.,-1.));
#300=DIRECTION('center_axis',(1.,0.,0.));
#301=DIRECTION('ref_axis',(0.,1.,0.));
#302=DIRECTION('center_axis',(1.,0.,0.));
#303=DIRECTION('ref_axis',(0.,0.,-1.));
#304=DIRECTION('center_axis',(-1.,0.,0.));
#305=DIRECTION('ref_axis',(0.,1.,0.));
#306=DIRECTION('center_axis',(1.,0.,0.));
#307=DIRECTION('ref_axis',(0.,-0.999999997964136,-6.3810093279833E-5));
#308=DIRECTION('center_axis',(0.,-1.,0.));
#309=DIRECTION('ref_axis',(1.,0.,0.));
#310=DIRECTION('',(-0.707106781186545,-0.70710678118655,-8.6595605623549E-17));
#311=DIRECTION('center_axis',(0.,-1.,0.));
#312=DIRECTION('ref_axis',(1.,0.,0.));
#313=DIRECTION('center_axis',(0.,-1.,0.));
#314=DIRECTION('ref_axis',(0.,0.,-1.));
#315=DIRECTION('center_axis',(0.,1.,0.));
#316=DIRECTION('ref_axis',(1.,0.,0.));
#317=DIRECTION('center_axis',(0.,1.,0.));
#318=DIRECTION('ref_axis',(1.,0.,0.));
#319=DIRECTION('center_axis',(0.,-1.,0.));
#320=DIRECTION('ref_axis',(1.,0.,0.));
#321=DIRECTION('',(0.707106781186547,-0.707106781186548,-8.65956056235493E-17));
#322=DIRECTION('center_axis',(0.,-1.,0.));
#323=DIRECTION('ref_axis',(1.,0.,0.));
#324=DIRECTION('center_axis',(0.,1.,0.));
#325=DIRECTION('ref_axis',(-1.,0.,0.));
#326=DIRECTION('center_axis',(0.,1.,0.));
#327=DIRECTION('ref_axis',(1.,0.,0.));
#328=DIRECTION('center_axis',(0.,1.,0.));
#329=DIRECTION('ref_axis',(1.,0.,0.));
#330=DIRECTION('',(0.,-1.,0.));
#331=DIRECTION('center_axis',(0.,-1.,0.));
#332=DIRECTION('ref_axis',(1.,0.,0.));
#333=DIRECTION('',(0.707106781186547,0.707106781186548,8.65956056235493E-17));
#334=DIRECTION('center_axis',(0.,1.,0.));
#335=DIRECTION('ref_axis',(-1.,0.,0.));
#336=DIRECTION('center_axis',(0.,1.,0.));
#337=DIRECTION('ref_axis',(1.,0.,0.));
#338=DIRECTION('center_axis',(0.,1.,0.));
#339=DIRECTION('ref_axis',(1.,0.,0.));
#340=DIRECTION('',(0.,-1.,0.));
#341=DIRECTION('center_axis',(7.59464923284885E-16,-1.,-6.12323399573677E-17));
#342=DIRECTION('ref_axis',(-1.30807442172662E-11,3.86164530304402E-17,-1.));
#343=DIRECTION('center_axis',(-1.,-7.59464923285686E-16,1.30806235408505E-11));
#344=DIRECTION('ref_axis',(1.30806235408505E-11,-4.82705662880503E-17,1.));
#345=CARTESIAN_POINT('',(0.,0.,0.));
#346=CARTESIAN_POINT('Origin',(-2.06367920800442,-2.87516958712541,0.));
#347=CARTESIAN_POINT('',(-11.0636792080044,-2.87516958712541,1.10218211923262E-15));
#348=CARTESIAN_POINT('Origin',(-2.06367920800442,-2.87516958712541,0.));
#349=CARTESIAN_POINT('Origin',(-2.06367920800442,3.12483041287459,0.));
#350=CARTESIAN_POINT('',(9.93632079199558,3.12483041287459,-1.46957615897682E-15));
#351=CARTESIAN_POINT('Origin',(-2.06367920800442,3.12483041287459,0.));
#352=CARTESIAN_POINT('',(-2.06367920800442,3.12483041287459,11.4571067811865));
#353=CARTESIAN_POINT('Origin',(-2.06367920800442,3.12483041287459,7.65404249467097E-18));
#354=CARTESIAN_POINT('Origin',(-2.06367920800442,2.62483041287459,0.));
#355=CARTESIAN_POINT('',(-2.06367920787165,2.42483041287459,10.15));
#356=CARTESIAN_POINT('',(8.08632079199558,2.42483041287459,-1.24301650113456E-15));
#357=CARTESIAN_POINT('Origin',(-2.06367920800442,2.42483041287459,3.39518694222778E-33));
#358=CARTESIAN_POINT('Origin',(-2.06367920800442,2.42483041287459,3.39518694222778E-33));
#359=CARTESIAN_POINT('',(8.08632079199558,1.62483041287459,-1.24301650113456E-15));
#360=CARTESIAN_POINT('',(8.08632079199558,2.62483041287459,-1.24301650113456E-15));
#361=CARTESIAN_POINT('',(-12.2136792080044,1.62483041287459,0.));
#362=CARTESIAN_POINT('Origin',(-2.06367920800442,1.62483041287459,0.));
#363=CARTESIAN_POINT('Origin',(-2.06367920800442,1.62483041287459,0.));
#364=CARTESIAN_POINT('Origin',(-1.06367920800442,43.0268522888777,0.));
#365=CARTESIAN_POINT('',(-1.06367920800442,5.45862142442869,-7.95885129151698));
#366=CARTESIAN_POINT('',(-1.06367920800442,5.45862142442869,7.95885129151699));
#367=CARTESIAN_POINT('Ctrl Pts',(-1.06367920800442,5.45862142442835,-7.95885129151693));
#368=CARTESIAN_POINT('Ctrl Pts',(-1.06367920800442,5.90690838439534,-5.24698726717004));
#369=CARTESIAN_POINT('Ctrl Pts',(-1.06367920800592,6.11398740139111,-2.52997024808856));
#370=CARTESIAN_POINT('Ctrl Pts',(-1.06367920800592,6.11398739804567,2.52997029281773));
#371=CARTESIAN_POINT('Ctrl Pts',(-1.06367920800442,5.90690838081392,5.24698728891621));
#372=CARTESIAN_POINT('Ctrl Pts',(-1.06367920800442,5.45862142442726,7.95885129151676));
#373=CARTESIAN_POINT('Origin',(-1.06367920800442,43.0268522888777,0.));
#374=CARTESIAN_POINT('Origin',(-3.06367920800442,43.0268522888777,0.));
#375=CARTESIAN_POINT('',(-3.06367920800442,5.45862142442869,7.95885129151699));
#376=CARTESIAN_POINT('',(-3.06367920800442,5.45862142442869,-7.95885129151698));
#377=CARTESIAN_POINT('Ctrl Pts',(-3.06367920800442,5.45862142442704,7.95885129151672));
#378=CARTESIAN_POINT('Ctrl Pts',(-3.06367920800442,5.90690838081299,5.24698728892266));
#379=CARTESIAN_POINT('Ctrl Pts',(-3.06367920800592,6.1139873979103,2.52997029274267));
#380=CARTESIAN_POINT('Ctrl Pts',(-3.06367920800592,6.11398740125575,-2.5299702480135));
#381=CARTESIAN_POINT('Ctrl Pts',(-3.06367920800442,5.90690838439443,-5.2469872671765));
#382=CARTESIAN_POINT('Ctrl Pts',(-3.06367920800442,5.45862142442814,-7.95885129151689));
#383=CARTESIAN_POINT('Origin',(-3.06367920800442,43.0268522888777,0.));
#384=CARTESIAN_POINT('Origin',(-2.06367920800442,43.0268522888777,0.));
#385=CARTESIAN_POINT('',(-2.06367921465897,5.46445477518349,-7.98633690675762));
#386=CARTESIAN_POINT('Ctrl Pts',(-3.06367920800433,5.45862142442838,-7.95885129151546));
#387=CARTESIAN_POINT('Ctrl Pts',(-2.97231943753501,5.45968728636646,-7.96388248834183));
#388=CARTESIAN_POINT('Ctrl Pts',(-2.88096829588638,5.46060696293601,-7.96821875695292));
#389=CARTESIAN_POINT('Ctrl Pts',(-2.54741954542324,5.4634320015266,-7.98153106561825));
#390=CARTESIAN_POINT('Ctrl Pts',(-2.30532610362853,5.46445477516471,-7.98633690666932));
#391=CARTESIAN_POINT('Ctrl Pts',(-2.06367921465897,5.46445477518349,-7.98633690675762));
#392=CARTESIAN_POINT('Ctrl Pts',(-1.06367920800464,5.45862142442787,7.95885129151307));
#393=CARTESIAN_POINT('Ctrl Pts',(-1.39525363010582,5.46248978524298,7.97711114671652));
#394=CARTESIAN_POINT('Ctrl Pts',(-1.72885029317754,5.46445477520897,7.98633690687751));
#395=CARTESIAN_POINT('Ctrl Pts',(-2.06367921465897,5.46445477518295,7.98633690675515));
#396=CARTESIAN_POINT('Ctrl Pts',(-2.39837466151279,5.46445477515695,7.98633690663284));
#397=CARTESIAN_POINT('Ctrl Pts',(-2.7319757219285,5.46249129098637,7.97711825428937));
#398=CARTESIAN_POINT('Ctrl Pts',(-3.06367920800416,5.45862142442775,7.95885129151249));
#399=CARTESIAN_POINT('Ctrl Pts',(-2.06367921465897,5.46445477518349,-7.98633690675762));
#400=CARTESIAN_POINT('Ctrl Pts',(-1.7292138647787,5.46445477520948,-7.98633690687985));
#401=CARTESIAN_POINT('Ctrl Pts',(-1.39560398865093,5.46249387275204,-7.97713044101896));
#402=CARTESIAN_POINT('Ctrl Pts',(-1.06367920800448,5.4586214244285,-7.95885129151603));
#403=CARTESIAN_POINT('Origin',(-2.06367920800442,-3.12516958712541,0.));
#404=CARTESIAN_POINT('',(-11.5636792080044,-3.37516958712541,-1.16341445918999E-15));
#405=CARTESIAN_POINT('',(-11.3136792080044,-3.12516958712541,-1.1327982892113E-15));
#406=CARTESIAN_POINT('Origin',(-2.06367920800442,-3.37516958712541,0.));
#407=CARTESIAN_POINT('Origin',(-13.0636792080044,-3.37516958712541,0.));
#408=CARTESIAN_POINT('',(-12.2136792080044,-3.37516958712541,1.24301650113456E-15));
#409=CARTESIAN_POINT('Origin',(-2.06367920800442,-3.37516958712541,0.));
#410=CARTESIAN_POINT('Origin',(-2.06367920800442,-2.95016958712541,0.));
#411=CARTESIAN_POINT('',(8.93632079199558,-2.52516958712541,-1.34711147906209E-15));
#412=CARTESIAN_POINT('',(-13.0636792080044,-2.52516958712541,1.34711147906209E-15));
#413=CARTESIAN_POINT('Origin',(-2.06367920800442,-2.52516958712541,0.));
#414=CARTESIAN_POINT('',(-12.6386792080044,-2.95016958712541,1.29506399009833E-15));
#415=CARTESIAN_POINT('Origin',(-2.06367920800442,-2.52516958712541,0.));
#416=CARTESIAN_POINT('Origin',(-2.06367920800442,-0.875169587125413,0.));
#417=CARTESIAN_POINT('',(-13.0636792080044,0.774830412874588,1.34711147906209E-15));
#418=CARTESIAN_POINT('',(8.93632079199558,0.774830412874588,-1.34711147906209E-15));
#419=CARTESIAN_POINT('Origin',(-2.06367920800442,0.774830412874588,0.));
#420=CARTESIAN_POINT('Origin',(-2.06367920800442,0.774830412874588,0.));
#421=CARTESIAN_POINT('',(8.93632079199558,-0.875169587125413,-1.34711147906209E-15));
#422=CARTESIAN_POINT('Origin',(-2.06367920800442,1.19983041287459,0.));
#423=CARTESIAN_POINT('',(-12.6386792080044,1.19983041287459,-1.29506399009833E-15));
#424=CARTESIAN_POINT('Origin',(-2.06367920800442,3.87483041287459,0.));
#425=CARTESIAN_POINT('',(-2.06367920800442,4.62483041287459,-12.));
#426=CARTESIAN_POINT('',(9.93632079199558,4.62483041287459,-1.46957615897682E-15));
#427=CARTESIAN_POINT('Origin',(-2.06367920800442,4.62483041287459,0.));
#428=CARTESIAN_POINT('Origin',(-2.06367920800442,4.62483041287459,0.));
#429=CARTESIAN_POINT('',(9.93632079199558,3.87483041287459,-1.46957615897682E-15));
#430=CARTESIAN_POINT('Ctrl Pts',(-2.06367921454284,4.62483041265112,-12.0000000008985));
#431=CARTESIAN_POINT('Ctrl Pts',(-14.0636792467191,4.62483041099141,-12.0000000008985));
#432=CARTESIAN_POINT('Ctrl Pts',(-14.0636792467191,4.62483040305746,3.12778324449169E-8));
#433=CARTESIAN_POINT('Ctrl Pts',(-14.0636792467191,4.6248303951235,12.0000000634541));
#434=CARTESIAN_POINT('Ctrl Pts',(-2.06367921454284,4.62483039678321,12.0000000634541));
#435=CARTESIAN_POINT('Ctrl Pts',(9.93632081763345,4.62483039844292,12.0000000634541));
#436=CARTESIAN_POINT('Ctrl Pts',(9.93632081763346,4.62483040637687,3.12778324471116E-8));
#437=CARTESIAN_POINT('Ctrl Pts',(9.93632081763345,4.62483041431083,-12.0000000008985));
#438=CARTESIAN_POINT('Ctrl Pts',(-2.06367921454284,4.62483041265112,-12.0000000008985));
#439=CARTESIAN_POINT('Ctrl Pts',(-2.06367921473255,5.9964224987935,-6.58488376903176));
#440=CARTESIAN_POINT('Ctrl Pts',(-8.64856301594898,5.99642249788275,-6.58488376903176));
#441=CARTESIAN_POINT('Ctrl Pts',(-8.64856301594898,5.99642249352906,3.2184678443374E-8));
#442=CARTESIAN_POINT('Ctrl Pts',(-8.64856301594898,5.99642248917538,6.58488383340111));
#443=CARTESIAN_POINT('Ctrl Pts',(-2.06367921473255,5.99642249008613,6.58488383340111));
#444=CARTESIAN_POINT('Ctrl Pts',(4.52120458648389,5.99642249099688,6.58488383340111));
#445=CARTESIAN_POINT('Ctrl Pts',(4.52120458648389,5.99642249535056,3.21846778894668E-8));
#446=CARTESIAN_POINT('Ctrl Pts',(4.52120458648389,5.99642249970425,-6.58488376903176));
#447=CARTESIAN_POINT('Ctrl Pts',(-2.06367921473255,5.9964224987935,-6.58488376903176));
#448=CARTESIAN_POINT('Ctrl Pts',(-2.06367921474881,6.11398740045384,-0.999999960993189));
#449=CARTESIAN_POINT('Ctrl Pts',(-3.06367920800441,6.11398740031554,-0.999999960993189));
#450=CARTESIAN_POINT('Ctrl Pts',(-3.06367920800441,6.11398739965438,3.22624077129544E-8));
#451=CARTESIAN_POINT('Ctrl Pts',(-3.06367920800441,6.11398739899322,1.000000025518));
#452=CARTESIAN_POINT('Ctrl Pts',(-2.06367921474881,6.11398739913152,1.000000025518));
#453=CARTESIAN_POINT('Ctrl Pts',(-1.06367922149321,6.11398739926983,1.000000025518));
#454=CARTESIAN_POINT('Ctrl Pts',(-1.06367922149321,6.11398739993099,3.22624077131373E-8));
#455=CARTESIAN_POINT('Ctrl Pts',(-1.06367922149321,6.11398740059215,-0.999999960993189));
#456=CARTESIAN_POINT('Ctrl Pts',(-2.06367921474881,6.11398740045384,-0.999999960993189));
#457=CARTESIAN_POINT('Ctrl Pts',(-2.06367921454284,4.62483041265112,-12.0000000008985));
#458=CARTESIAN_POINT('Ctrl Pts',(-2.06367921461253,5.12868661480677,-10.0107497519461));
#459=CARTESIAN_POINT('Ctrl Pts',(-2.06367921465897,5.4644547751883,-7.98633690672862));
#460=CARTESIAN_POINT('Origin',(-2.06367920800442,2.87483041287459,3.39518694222778E-33));
#461=CARTESIAN_POINT('Origin',(-2.0636792078638,2.87483041287459,10.75));
#462=UNCERTAINTY_MEASURE_WITH_UNIT(LENGTH_MEASURE(0.01),#466,
'DISTANCE_ACCURACY_VALUE',
'Maximum model space distance between geometric entities at asserted c
onnectivities');
#463=UNCERTAINTY_MEASURE_WITH_UNIT(LENGTH_MEASURE(0.01),#466,
'DISTANCE_ACCURACY_VALUE',
'Maximum model space distance between geometric entities at asserted c
onnectivities');
#464=(
GEOMETRIC_REPRESENTATION_CONTEXT(3)
GLOBAL_UNCERTAINTY_ASSIGNED_CONTEXT((#462))
GLOBAL_UNIT_ASSIGNED_CONTEXT((#466,#468,#469))
REPRESENTATION_CONTEXT('','3D')
);
#465=(
GEOMETRIC_REPRESENTATION_CONTEXT(3)
GLOBAL_UNCERTAINTY_ASSIGNED_CONTEXT((#463))
GLOBAL_UNIT_ASSIGNED_CONTEXT((#466,#468,#469))
REPRESENTATION_CONTEXT('','3D')
);
#466=(
LENGTH_UNIT()
NAMED_UNIT(*)
SI_UNIT(.MILLI.,.METRE.)
);
#467=(
LENGTH_UNIT()
NAMED_UNIT(*)
SI_UNIT(.CENTI.,.METRE.)
);
#468=(
NAMED_UNIT(*)
PLANE_ANGLE_UNIT()
SI_UNIT($,.RADIAN.)
);
#469=(
NAMED_UNIT(*)
SI_UNIT($,.STERADIAN.)
SOLID_ANGLE_UNIT()
);
#470=SHAPE_DEFINITION_REPRESENTATION(#471,#472);
#471=PRODUCT_DEFINITION_SHAPE('',$,#474);
#472=SHAPE_REPRESENTATION('',(#243),#464);
#473=PRODUCT_DEFINITION_CONTEXT('part definition',#478,'design');
#474=PRODUCT_DEFINITION('\X2\0414043504420430043B044C\X0\1',
'\X2\04170420\X0\1-\X2\041B0420\X0\-\X2\041C\X0\22\X2\0445\X0\1,5 (ze',
#475,#473);
#475=PRODUCT_DEFINITION_FORMATION('',$,#480);
#476=PRODUCT_RELATED_PRODUCT_CATEGORY('\X2\04170420\X0\1-\X2\041B0420\X0\-
\X2\041C\X0\22\X2\0445\X0\1,5 (ze','\X2\04170420\X0\1-\X2\041B0420\X0\-
\X2\041C\X0\22\X2\0445\X0\1,5 (ze',(#480));
#477=APPLICATION_PROTOCOL_DEFINITION('international standard',
'automotive_design',2009,#478);
#478=APPLICATION_CONTEXT(
'Core Data for Automotive Mechanical Design Process');
#479=PRODUCT_CONTEXT('part definition',#478,'mechanical');
#480=PRODUCT('\X2\0414043504420430043B044C\X0\1',
'\X2\04170420\X0\1-\X2\041B0420\X0\-\X2\041C\X0\22\X2\0445\X0\1,5 (ze',
$,(#479));
#481=PRESENTATION_STYLE_ASSIGNMENT((#482));
#482=SURFACE_STYLE_USAGE(.BOTH.,#485);
#483=SURFACE_STYLE_RENDERING_WITH_PROPERTIES($,#489,(#484));
#484=SURFACE_STYLE_TRANSPARENT(0.);
#485=SURFACE_SIDE_STYLE('',(#486,#483));
#486=SURFACE_STYLE_FILL_AREA(#487);
#487=FILL_AREA_STYLE('',(#488));
#488=FILL_AREA_STYLE_COLOUR('',#489);
#489=COLOUR_RGB('',0.749019607843137,0.749019607843137,0.749019607843137);
ENDSEC;
END-ISO-10303-21;
